ISO-10303-21;
HEADER;
FILE_DESCRIPTION (( 'STEP AP203' ),
    '1' );
FILE_NAME ('Q-DWWP-R21-25.4-1064-SH-M.STEP',
    '2020-12-22T08:53:30',
    ( '' ),
    ( '' ),
    'SwSTEP 2.0',
    'SolidWorks 2020',
    '' );
FILE_SCHEMA (( 'CONFIG_CONTROL_DESIGN' ));
ENDSEC;

DATA;
#1 = PLANE ( 'NONE',  #319 ) ;
#2 = CC_DESIGN_PERSON_AND_ORGANIZATION_ASSIGNMENT ( #168, #272, ( #176 ) ) ;
#3 = DIRECTION ( 'NONE',  ( 1.000000000000000000, 0.000000000000000000, 0.000000000000000000 ) ) ;
#4 = EDGE_CURVE ( 'NONE', #76, #125, #231, .T. ) ;
#5 = DIRECTION ( 'NONE',  ( 0.000000000000000000, 0.000000000000000000, 1.000000000000000000 ) ) ;
#6 = DIRECTION ( 'NONE',  ( -1.000000000000000000, -0.000000000000000000, -0.000000000000000000 ) ) ;
#7 = DIRECTION ( 'NONE',  ( -1.000000000000000000, -0.000000000000000000, -0.000000000000000000 ) ) ;
#8 = MANIFOLD_SOLID_BREP ( 'Ðý×', #157 ) ;
#9 = FACE_OUTER_BOUND ( 'NONE', #155, .T. ) ;
#10 = DIRECTION ( 'NONE',  ( -1.000000000000000000, -0.000000000000000000, -0.000000000000000000 ) ) ;
#11 = DIRECTION ( 'NONE',  ( -1.000000000000000000, -0.000000000000000000, -0.000000000000000000 ) ) ;
#12 = ADVANCED_FACE ( 'NONE', ( #230 ), #153, .F. ) ;
#13 = CYLINDRICAL_SURFACE ( 'NONE', #16, 5.000000000000000000 ) ;
#14 = CARTESIAN_POINT ( 'NONE',  ( -0.5000000000000002220, 0.000000000000000000, 0.000000000000000000 ) ) ;
#15 = DIRECTION ( 'NONE',  ( 1.000000000000000000, 0.000000000000000000, 0.000000000000000000 ) ) ;
#16 = AXIS2_PLACEMENT_3D ( 'NONE', #34, #10, #311 ) ;
#17 = PERSON_AND_ORGANIZATION_ROLE ( 'classification_officer' ) ;
#18 = DIRECTION ( 'NONE',  ( 0.000000000000000000, 0.000000000000000000, 1.000000000000000000 ) ) ;
#19 = ADVANCED_FACE ( 'NONE', ( #52 ), #1, .F. ) ;
#20 = EDGE_CURVE ( 'NONE', #74, #322, #227, .T. ) ;
#21 = ORIENTED_EDGE ( 'NONE', *, *, #278, .T. ) ;
#22 = APPROVAL_STATUS ( 'not_yet_approved' ) ;
#23 = AXIS2_PLACEMENT_3D ( 'NONE', #328, #246, #122 ) ;
#24 = PRODUCT_DEFINITION_SHAPE ( 'NONE', 'NONE',  #313 ) ;
#25 = CALENDAR_DATE ( 2020, 22, 12 ) ;
#26 = ORIENTED_EDGE ( 'NONE', *, *, #150, .F. ) ;
#27 = EDGE_LOOP ( 'NONE', ( #114, #21, #205, #300 ) ) ;
#28 = ORIENTED_EDGE ( 'NONE', *, *, #304, .T. ) ;
#29 = CC_DESIGN_PERSON_AND_ORGANIZATION_ASSIGNMENT ( #49, #193, ( #112 ) ) ;
#30 = DIRECTION ( 'NONE',  ( 0.000000000000000000, 0.000000000000000000, -1.000000000000000000 ) ) ;
#31 = EDGE_CURVE ( 'NONE', #125, #76, #259, .T. ) ;
#32 = AXIS2_PLACEMENT_3D ( 'NONE', #335, #100, #99 ) ;
#33 = AXIS2_PLACEMENT_3D ( 'NONE', #89, #62, #82 ) ;
#34 = CARTESIAN_POINT ( 'NONE',  ( -1.614212418857619014, 0.000000000000000000, 0.000000000000000000 ) ) ;
#35 = DIRECTION ( 'NONE',  ( 0.000000000000000000, 0.000000000000000000, 1.000000000000000000 ) ) ;
#36 = CARTESIAN_POINT ( 'NONE',  ( 1.500000000000000000, 6.123233995736766282E-16, -5.000000000000000000 ) ) ;
#37 = AXIS2_PLACEMENT_3D ( 'NONE', #39, #15, #315 ) ;
#38 =( NAMED_UNIT ( * ) SI_UNIT ( $, .STERADIAN. ) SOLID_ANGLE_UNIT ( ) );
#39 = CARTESIAN_POINT ( 'NONE',  ( -0.5000000000000002220, 0.000000000000000000, 0.000000000000000000 ) ) ;
#40 = ORIENTED_EDGE ( 'NONE', *, *, #145, .F. ) ;
#41 = LINE ( 'NONE', #209, #285 ) ;
#42 = ORIENTED_EDGE ( 'NONE', *, *, #228, .T. ) ;
#43 = COORDINATED_UNIVERSAL_TIME_OFFSET ( 8, 0, .AHEAD. ) ;
#44 = CARTESIAN_POINT ( 'NONE',  ( 0.5000000000000004441, 3.673940397442059868E-16, -3.000000000000000000 ) ) ;
#45 = CALENDAR_DATE ( 2020, 22, 12 ) ;
#46 = DATE_AND_TIME ( #45, #175 ) ;
#47 = APPROVAL_STATUS ( 'not_yet_approved' ) ;
#48 = ORIENTED_EDGE ( 'NONE', *, *, #297, .T. ) ;
#49 = PERSON_AND_ORGANIZATION ( #268, #204 ) ;
#50 = ADVANCED_FACE ( 'NONE', ( #307 ), #203, .F. ) ;
#51 = ORIENTED_EDGE ( 'NONE', *, *, #172, .F. ) ;
#52 = FACE_OUTER_BOUND ( 'NONE', #69, .T. ) ;
#53 = APPROVAL ( #144, 'UNSPECIFIED' ) ;
#54 = VERTEX_POINT ( 'NONE', #283 ) ;
#55 = ORIENTED_EDGE ( 'NONE', *, *, #97, .T. ) ;
#56 = CARTESIAN_POINT ( 'NONE',  ( 1.500000000000000444, 0.000000000000000000, 0.000000000000000000 ) ) ;
#57 = DIRECTION ( 'NONE',  ( 0.000000000000000000, 0.000000000000000000, 1.000000000000000000 ) ) ;
#58 = SECURITY_CLASSIFICATION ( '', '', #146 ) ;
#59 = LINE ( 'NONE', #159, #85 ) ;
#60 = CARTESIAN_POINT ( 'NONE',  ( -1.614212418857619014, 6.123233995736766282E-16, -5.000000000000000000 ) ) ;
#61 = CARTESIAN_POINT ( 'NONE',  ( -1.500000000000000000, 0.000000000000000000, 3.000000000000000000 ) ) ;
#62 = DIRECTION ( 'NONE',  ( -1.000000000000000000, -0.000000000000000000, -0.000000000000000000 ) ) ;
#63 = LINE ( 'NONE', #60, #129 ) ;
#64 = ADVANCED_FACE ( 'NONE', ( #212 ), #131, .T. ) ;
#65 = PERSON_AND_ORGANIZATION ( #268, #204 ) ;
#66 = DIRECTION ( 'NONE',  ( 0.000000000000000000, 0.000000000000000000, 1.000000000000000000 ) ) ;
#67 = ORIENTED_EDGE ( 'NONE', *, *, #31, .T. ) ;
#68 = APPLICATION_PROTOCOL_DEFINITION ( 'international standard', 'config_control_design', 1994, #318 ) ;
#69 = EDGE_LOOP ( 'NONE', ( #244, #323 ) ) ;
#70 = MECHANICAL_CONTEXT ( 'NONE', #95, 'mechanical' ) ;
#71 = PERSON_AND_ORGANIZATION ( #268, #204 ) ;
#72 = VERTEX_POINT ( 'NONE', #105 ) ;
#73 = AXIS2_PLACEMENT_3D ( 'NONE', #308, #6, #66 ) ;
#74 = VERTEX_POINT ( 'NONE', #310 ) ;
#75 = ADVANCED_FACE ( 'NONE', ( #9, #317 ), #80, .F. ) ;
#76 = VERTEX_POINT ( 'NONE', #61 ) ;
#77 = DESIGN_CONTEXT ( 'detailed design', #318, 'design' ) ;
#78 = AXIS2_PLACEMENT_3D ( 'NONE', #208, #109, #81 ) ;
#79 = AXIS2_PLACEMENT_3D ( 'NONE', #162, #239, #288 ) ;
#80 = PLANE ( 'NONE',  #104 ) ;
#81 = DIRECTION ( 'NONE',  ( 0.000000000000000000, 0.000000000000000000, 1.000000000000000000 ) ) ;
#82 = DIRECTION ( 'NONE',  ( 0.000000000000000000, 0.000000000000000000, 1.000000000000000000 ) ) ;
#83 = AXIS2_PLACEMENT_3D ( 'NONE', #137, #11, #57 ) ;
#84 = DIRECTION ( 'NONE',  ( -1.000000000000000000, -0.000000000000000000, -0.000000000000000000 ) ) ;
#85 = VECTOR ( 'NONE', #161, 1000.000000000000000 ) ;
#86 = FACE_BOUND ( 'NONE', #101, .T. ) ;
#87 = CYLINDRICAL_SURFACE ( 'NONE', #78, 3.000000000000000000 ) ;
#88 = CIRCLE ( 'NONE', #92, 5.000000000000000000 ) ;
#89 = CARTESIAN_POINT ( 'NONE',  ( -1.614212418857619014, 0.000000000000000000, 0.000000000000000000 ) ) ;
#90 = ORIENTED_EDGE ( 'NONE', *, *, #4, .F. ) ;
#91 = PERSON_AND_ORGANIZATION ( #268, #204 ) ;
#92 = AXIS2_PLACEMENT_3D ( 'NONE', #235, #270, #5 ) ;
#93 = PERSON_AND_ORGANIZATION ( #268, #204 ) ;
#94 = DIRECTION ( 'NONE',  ( -1.000000000000000000, -0.000000000000000000, -0.000000000000000000 ) ) ;
#95 = APPLICATION_CONTEXT ( 'configuration controlled 3d designs of mechanical parts and assemblies' ) ;
#96 = LOCAL_TIME ( 16, 53, 30.00000000000000000, #198 ) ;
#97 = EDGE_CURVE ( 'NONE', #322, #72, #181, .T. ) ;
#98 = DIRECTION ( 'NONE',  ( 0.000000000000000000, 0.000000000000000000, 1.000000000000000000 ) ) ;
#99 = DIRECTION ( 'NONE',  ( 0.000000000000000000, 0.000000000000000000, 1.000000000000000000 ) ) ;
#100 = DIRECTION ( 'NONE',  ( -1.000000000000000000, -0.000000000000000000, -0.000000000000000000 ) ) ;
#101 = EDGE_LOOP ( 'NONE', ( #90, #219 ) ) ;
#102 = CARTESIAN_POINT ( 'NONE',  ( 1.500000000000000444, 0.000000000000000000, 0.000000000000000000 ) ) ;
#103 = DIRECTION ( 'NONE',  ( -0.000000000000000000, 0.000000000000000000, 1.000000000000000000 ) ) ;
#104 = AXIS2_PLACEMENT_3D ( 'NONE', #233, #254, #103 ) ;
#105 = CARTESIAN_POINT ( 'NONE',  ( -1.500000000000000000, 6.123233995736766282E-16, -5.000000000000000000 ) ) ;
#106 = CC_DESIGN_PERSON_AND_ORGANIZATION_ASSIGNMENT ( #117, #197, ( #112 ) ) ;
#107 = CIRCLE ( 'NONE', #189, 5.000000000000000000 ) ;
#108 = FACE_OUTER_BOUND ( 'NONE', #163, .T. ) ;
#109 = DIRECTION ( 'NONE',  ( -1.000000000000000000, -0.000000000000000000, -0.000000000000000000 ) ) ;
#110 = FACE_OUTER_BOUND ( 'NONE', #202, .T. ) ;
#111 = DIRECTION ( 'NONE',  ( 0.000000000000000000, 0.000000000000000000, -1.000000000000000000 ) ) ;
#112 = PRODUCT_DEFINITION_FORMATION_WITH_SPECIFIED_SOURCE ( 'ANY', '', #176, .NOT_KNOWN. ) ;
#113 = DATE_AND_TIME ( #248, #276 ) ;
#114 = ORIENTED_EDGE ( 'NONE', *, *, #150, .T. ) ;
#115 = CARTESIAN_POINT ( 'NONE',  ( -1.614212418857619014, 0.000000000000000000, 0.000000000000000000 ) ) ;
#116 = ORIENTED_EDGE ( 'NONE', *, *, #169, .F. ) ;
#117 = PERSON_AND_ORGANIZATION ( #268, #204 ) ;
#118 = CIRCLE ( 'NONE', #196, 5.000000000000000000 ) ;
#119 = ORIENTED_EDGE ( 'NONE', *, *, #257, .F. ) ;
#120 = ADVANCED_FACE ( 'NONE', ( #135 ), #87, .F. ) ;
#121 = CIRCLE ( 'NONE', #261, 3.000000000000000000 ) ;
#122 = DIRECTION ( 'NONE',  ( 1.000000000000000000, 0.000000000000000000, 0.000000000000000000 ) ) ;
#123 = VERTEX_POINT ( 'NONE', #186 ) ;
#124 = LOCAL_TIME ( 16, 53, 30.00000000000000000, #43 ) ;
#125 = VERTEX_POINT ( 'NONE', #312 ) ;
#126 = ORIENTED_EDGE ( 'NONE', *, *, #228, .F. ) ;
#127 = CARTESIAN_POINT ( 'NONE',  ( -1.500000000000000000, 0.000000000000000000, 0.000000000000000000 ) ) ;
#128 = AXIS2_PLACEMENT_3D ( 'NONE', #127, #252, #98 ) ;
#129 = VECTOR ( 'NONE', #240, 1000.000000000000000 ) ;
#130 = LINE ( 'NONE', #309, #327 ) ;
#131 = CYLINDRICAL_SURFACE ( 'NONE', #83, 5.000000000000000000 ) ;
#132 = UNCERTAINTY_MEASURE_WITH_UNIT (LENGTH_MEASURE( 1.000000000000000082E-05 ), #316, 'distance_accuracy_value', 'NONE');
#133 = DIRECTION ( 'NONE',  ( -1.000000000000000000, -0.000000000000000000, -0.000000000000000000 ) ) ;
#134 = CC_DESIGN_PERSON_AND_ORGANIZATION_ASSIGNMENT ( #91, #222, ( #313 ) ) ;
#135 = FACE_OUTER_BOUND ( 'NONE', #195, .T. ) ;
#136 = DIRECTION ( 'NONE',  ( -1.000000000000000000, -0.000000000000000000, -0.000000000000000000 ) ) ;
#137 = CARTESIAN_POINT ( 'NONE',  ( -1.614212418857619014, 0.000000000000000000, 0.000000000000000000 ) ) ;
#138 = CARTESIAN_POINT ( 'NONE',  ( 0.5000000000000004441, 0.000000000000000000, 0.000000000000000000 ) ) ;
#139 = DIRECTION ( 'NONE',  ( 1.000000000000000000, 0.000000000000000000, 0.000000000000000000 ) ) ;
#140 = AXIS2_PLACEMENT_3D ( 'NONE', #306, #281, #229 ) ;
#141 = VERTEX_POINT ( 'NONE', #289 ) ;
#142 = CALENDAR_DATE ( 2020, 22, 12 ) ;
#143 = FACE_OUTER_BOUND ( 'NONE', #250, .T. ) ;
#144 = APPROVAL_STATUS ( 'not_yet_approved' ) ;
#145 = EDGE_CURVE ( 'NONE', #247, #141, #290, .T. ) ;
#146 = SECURITY_CLASSIFICATION_LEVEL ( 'unclassified' ) ;
#147 = SHAPE_DEFINITION_REPRESENTATION ( #24, #210 ) ;
#148 =( GEOMETRIC_REPRESENTATION_CONTEXT ( 3 ) GLOBAL_UNCERTAINTY_ASSIGNED_CONTEXT ( ( #132 ) ) GLOBAL_UNIT_ASSIGNED_CONTEXT ( ( #316, #286, #38 ) ) REPRESENTATION_CONTEXT ( 'NONE', 'WORKASPACE' ) );
#149 = EDGE_LOOP ( 'NONE', ( #264, #119 ) ) ;
#150 = EDGE_CURVE ( 'NONE', #74, #266, #118, .T. ) ;
#151 = ORIENTED_EDGE ( 'NONE', *, *, #188, .F. ) ;
#152 = CARTESIAN_POINT ( 'NONE',  ( -0.5000000000000002220, 3.000000000000000000, 0.000000000000000000 ) ) ;
#153 = PLANE ( 'NONE',  #140 ) ;
#154 = CC_DESIGN_DATE_AND_TIME_ASSIGNMENT ( #166, #267, ( #58 ) ) ;
#155 = EDGE_LOOP ( 'NONE', ( #26, #116 ) ) ;
#156 = CARTESIAN_POINT ( 'NONE',  ( 1.500000000000000000, 0.000000000000000000, 0.000000000000000000 ) ) ;
#157 = CLOSED_SHELL ( 'NONE', ( #64, #185, #180, #12, #50, #120, #255, #294, #75, #19 ) ) ;
#158 = AXIS2_PLACEMENT_3D ( 'NONE', #115, #194, #218 ) ;
#159 = CARTESIAN_POINT ( 'NONE',  ( -1.614212418857619014, 3.673940397442059868E-16, -3.000000000000000000 ) ) ;
#160 = CARTESIAN_POINT ( 'NONE',  ( 1.500000000000000444, 0.000000000000000000, 3.000000000000000000 ) ) ;
#161 = DIRECTION ( 'NONE',  ( -1.000000000000000000, -0.000000000000000000, -0.000000000000000000 ) ) ;
#162 = CARTESIAN_POINT ( 'NONE',  ( 0.5000000000000004441, 0.000000000000000000, 0.000000000000000000 ) ) ;
#163 = EDGE_LOOP ( 'NONE', ( #191, #201, #334, #302 ) ) ;
#164 = CARTESIAN_POINT ( 'NONE',  ( -1.614212418857619014, 0.000000000000000000, 3.000000000000000000 ) ) ;
#165 = EDGE_CURVE ( 'NONE', #123, #76, #130, .T. ) ;
#166 = DATE_AND_TIME ( #330, #96 ) ;
#167 = CC_DESIGN_SECURITY_CLASSIFICATION ( #58, ( #112 ) ) ;
#168 = PERSON_AND_ORGANIZATION ( #268, #204 ) ;
#169 = EDGE_CURVE ( 'NONE', #266, #74, #88, .T. ) ;
#170 = ORIENTED_EDGE ( 'NONE', *, *, #297, .F. ) ;
#171 = COORDINATED_UNIVERSAL_TIME_OFFSET ( 8, 0, .AHEAD. ) ;
#172 = EDGE_CURVE ( 'NONE', #141, #247, #282, .T. ) ;
#173 = VERTEX_POINT ( 'NONE', #44 ) ;
#174 = COORDINATED_UNIVERSAL_TIME_OFFSET ( 8, 0, .AHEAD. ) ;
#175 = LOCAL_TIME ( 16, 53, 30.00000000000000000, #174 ) ;
#176 = PRODUCT ( 'Q-DWWP-R21-25.4-1064-SH-M', 'Q-DWWP-R21-25.4-1064-SH-M', '', ( #70 ) ) ;
#177 = ORIENTED_EDGE ( 'NONE', *, *, #257, .T. ) ;
#178 = CIRCLE ( 'NONE', #37, 3.000000000000000000 ) ;
#179 = ORIENTED_EDGE ( 'NONE', *, *, #188, .T. ) ;
#180 = ADVANCED_FACE ( 'NONE', ( #143 ), #243, .F. ) ;
#181 = CIRCLE ( 'NONE', #236, 5.000000000000000000 ) ;
#182 = CARTESIAN_POINT ( 'NONE',  ( -1.500000000000000000, 0.000000000000000000, 5.000000000000000000 ) ) ;
#183 = VECTOR ( 'NONE', #320, 1000.000000000000000 ) ;
#184 = DIRECTION ( 'NONE',  ( 0.000000000000000000, 0.000000000000000000, 1.000000000000000000 ) ) ;
#185 = ADVANCED_FACE ( 'NONE', ( #299 ), #324, .F. ) ;
#186 = CARTESIAN_POINT ( 'NONE',  ( -0.5000000000000002220, 0.000000000000000000, 3.000000000000000000 ) ) ;
#187 = DIRECTION ( 'NONE',  ( 0.000000000000000000, 0.000000000000000000, 1.000000000000000000 ) ) ;
#188 = EDGE_CURVE ( 'NONE', #54, #125, #59, .T. ) ;
#189 = AXIS2_PLACEMENT_3D ( 'NONE', #211, #7, #187 ) ;
#190 = CARTESIAN_POINT ( 'NONE',  ( 0.5000000000000004441, 0.000000000000000000, 3.000000000000000000 ) ) ;
#191 = ORIENTED_EDGE ( 'NONE', *, *, #278, .F. ) ;
#192 = DATE_TIME_ROLE ( 'creation_date' ) ;
#193 = PERSON_AND_ORGANIZATION_ROLE ( 'design_supplier' ) ;
#194 = DIRECTION ( 'NONE',  ( -1.000000000000000000, -0.000000000000000000, -0.000000000000000000 ) ) ;
#195 = EDGE_LOOP ( 'NONE', ( #151, #325, #280, #329 ) ) ;
#196 = AXIS2_PLACEMENT_3D ( 'NONE', #156, #84, #35 ) ;
#197 = PERSON_AND_ORGANIZATION_ROLE ( 'creator' ) ;
#198 = COORDINATED_UNIVERSAL_TIME_OFFSET ( 8, 0, .AHEAD. ) ;
#199 = ORIENTED_EDGE ( 'NONE', *, *, #145, .T. ) ;
#200 = LOCAL_TIME ( 16, 53, 30.00000000000000000, #303 ) ;
#201 = ORIENTED_EDGE ( 'NONE', *, *, #169, .T. ) ;
#202 = EDGE_LOOP ( 'NONE', ( #55, #28 ) ) ;
#203 = CYLINDRICAL_SURFACE ( 'NONE', #73, 3.000000000000000000 ) ;
#204 = ORGANIZATION ( 'UNSPECIFIED', 'UNSPECIFIED', '' ) ;
#205 = ORIENTED_EDGE ( 'NONE', *, *, #97, .F. ) ;
#206 = DIRECTION ( 'NONE',  ( -1.000000000000000000, -0.000000000000000000, -0.000000000000000000 ) ) ;
#207 = DIRECTION ( 'NONE',  ( 0.000000000000000000, 0.000000000000000000, -1.000000000000000000 ) ) ;
#208 = CARTESIAN_POINT ( 'NONE',  ( -1.614212418857619014, 0.000000000000000000, 0.000000000000000000 ) ) ;
#209 = CARTESIAN_POINT ( 'NONE',  ( -1.614212418857619014, 3.673940397442059868E-16, -3.000000000000000000 ) ) ;
#210 = ADVANCED_BREP_SHAPE_REPRESENTATION ( 'Q-DWWP-R21-25.4-1064-SH-M', ( #8, #23 ), #148 ) ;
#211 = CARTESIAN_POINT ( 'NONE',  ( -1.500000000000000000, 0.000000000000000000, 0.000000000000000000 ) ) ;
#212 = FACE_OUTER_BOUND ( 'NONE', #27, .T. ) ;
#213 = CC_DESIGN_PERSON_AND_ORGANIZATION_ASSIGNMENT ( #65, #17, ( #58 ) ) ;
#214 = CIRCLE ( 'NONE', #79, 3.000000000000000000 ) ;
#215 = APPROVAL_DATE_TIME ( #113, #53 ) ;
#216 = EDGE_LOOP ( 'NONE', ( #126, #40, #48, #223 ) ) ;
#217 = DATE_AND_TIME ( #25, #200 ) ;
#218 = DIRECTION ( 'NONE',  ( 0.000000000000000000, 0.000000000000000000, 1.000000000000000000 ) ) ;
#219 = ORIENTED_EDGE ( 'NONE', *, *, #31, .F. ) ;
#220 = AXIS2_PLACEMENT_3D ( 'NONE', #56, #256, #18 ) ;
#221 = AXIS2_PLACEMENT_3D ( 'NONE', #260, #263, #207 ) ;
#222 = PERSON_AND_ORGANIZATION_ROLE ( 'creator' ) ;
#223 = ORIENTED_EDGE ( 'NONE', *, *, #265, .T. ) ;
#224 = ORIENTED_EDGE ( 'NONE', *, *, #165, .F. ) ;
#225 = EDGE_LOOP ( 'NONE', ( #199, #249 ) ) ;
#226 = EDGE_CURVE ( 'NONE', #54, #123, #178, .T. ) ;
#227 = LINE ( 'NONE', #331, #332 ) ;
#228 = EDGE_CURVE ( 'NONE', #141, #173, #41, .T. ) ;
#229 = DIRECTION ( 'NONE',  ( -0.000000000000000000, 0.000000000000000000, 1.000000000000000000 ) ) ;
#230 = FACE_OUTER_BOUND ( 'NONE', #149, .T. ) ;
#231 = CIRCLE ( 'NONE', #128, 3.000000000000000000 ) ;
#232 = CIRCLE ( 'NONE', #262, 3.000000000000000000 ) ;
#233 = CARTESIAN_POINT ( 'NONE',  ( 1.500000000000000222, 5.000000000000000000, 0.000000000000000000 ) ) ;
#234 = LINE ( 'NONE', #164, #183 ) ;
#235 = CARTESIAN_POINT ( 'NONE',  ( 1.500000000000000000, 0.000000000000000000, 0.000000000000000000 ) ) ;
#236 = AXIS2_PLACEMENT_3D ( 'NONE', #238, #287, #184 ) ;
#237 = PLANE ( 'NONE',  #221 ) ;
#238 = CARTESIAN_POINT ( 'NONE',  ( -1.500000000000000000, 0.000000000000000000, 0.000000000000000000 ) ) ;
#239 = DIRECTION ( 'NONE',  ( -1.000000000000000000, -0.000000000000000000, -0.000000000000000000 ) ) ;
#240 = DIRECTION ( 'NONE',  ( -1.000000000000000000, -0.000000000000000000, -0.000000000000000000 ) ) ;
#241 = APPROVAL ( #47, 'UNSPECIFIED' ) ;
#242 = DATE_AND_TIME ( #142, #124 ) ;
#243 = CYLINDRICAL_SURFACE ( 'NONE', #158, 3.000000000000000000 ) ;
#244 = ORIENTED_EDGE ( 'NONE', *, *, #269, .F. ) ;
#245 = APPROVAL_ROLE ( '' ) ;
#246 = DIRECTION ( 'NONE',  ( 0.000000000000000000, 0.000000000000000000, 1.000000000000000000 ) ) ;
#247 = VERTEX_POINT ( 'NONE', #160 ) ;
#248 = CALENDAR_DATE ( 2020, 22, 12 ) ;
#249 = ORIENTED_EDGE ( 'NONE', *, *, #172, .T. ) ;
#250 = EDGE_LOOP ( 'NONE', ( #51, #42, #177, #170 ) ) ;
#251 = AXIS2_PLACEMENT_3D ( 'NONE', #102, #206, #284 ) ;
#252 = DIRECTION ( 'NONE',  ( -1.000000000000000000, -0.000000000000000000, -0.000000000000000000 ) ) ;
#253 = DIRECTION ( 'NONE',  ( -1.000000000000000000, -0.000000000000000000, -0.000000000000000000 ) ) ;
#254 = DIRECTION ( 'NONE',  ( -1.000000000000000000, 0.000000000000000000, -0.000000000000000000 ) ) ;
#255 = ADVANCED_FACE ( 'NONE', ( #86, #110 ), #237, .F. ) ;
#256 = DIRECTION ( 'NONE',  ( -1.000000000000000000, -0.000000000000000000, -0.000000000000000000 ) ) ;
#257 = EDGE_CURVE ( 'NONE', #173, #277, #232, .T. ) ;
#258 = PRODUCT_RELATED_PRODUCT_CATEGORY ( 'detail', '', ( #176 ) ) ;
#259 = CIRCLE ( 'NONE', #32, 3.000000000000000000 ) ;
#260 = CARTESIAN_POINT ( 'NONE',  ( -1.500000000000000000, 3.000000000000000000, 0.000000000000000000 ) ) ;
#261 = AXIS2_PLACEMENT_3D ( 'NONE', #14, #139, #111 ) ;
#262 = AXIS2_PLACEMENT_3D ( 'NONE', #138, #136, #292 ) ;
#263 = DIRECTION ( 'NONE',  ( 1.000000000000000000, 0.000000000000000000, 0.000000000000000000 ) ) ;
#264 = ORIENTED_EDGE ( 'NONE', *, *, #265, .F. ) ;
#265 = EDGE_CURVE ( 'NONE', #277, #173, #214, .T. ) ;
#266 = VERTEX_POINT ( 'NONE', #36 ) ;
#267 = DATE_TIME_ROLE ( 'classification_date' ) ;
#268 = PERSON ( 'UNSPECIFIED', 'UNSPECIFIED', 'UNSPECIFIED', ('UNSPECIFIED'), ('UNSPECIFIED'), ('UNSPECIFIED') ) ;
#269 = EDGE_CURVE ( 'NONE', #123, #54, #121, .T. ) ;
#270 = DIRECTION ( 'NONE',  ( -1.000000000000000000, -0.000000000000000000, -0.000000000000000000 ) ) ;
#271 = CC_DESIGN_APPROVAL ( #241, ( #112 ) ) ;
#272 = PERSON_AND_ORGANIZATION_ROLE ( 'design_owner' ) ;
#273 = APPROVAL_ROLE ( '' ) ;
#274 = CC_DESIGN_DATE_AND_TIME_ASSIGNMENT ( #46, #192, ( #313 ) ) ;
#275 = APPROVAL_DATE_TIME ( #242, #326 ) ;
#276 = LOCAL_TIME ( 16, 53, 30.00000000000000000, #171 ) ;
#277 = VERTEX_POINT ( 'NONE', #190 ) ;
#278 = EDGE_CURVE ( 'NONE', #266, #72, #63, .T. ) ;
#279 = APPROVAL_DATE_TIME ( #217, #241 ) ;
#280 = ORIENTED_EDGE ( 'NONE', *, *, #165, .T. ) ;
#281 = DIRECTION ( 'NONE',  ( -1.000000000000000000, 0.000000000000000000, -0.000000000000000000 ) ) ;
#282 = CIRCLE ( 'NONE', #251, 3.000000000000000000 ) ;
#283 = CARTESIAN_POINT ( 'NONE',  ( -0.5000000000000002220, 3.673940397442059868E-16, -3.000000000000000000 ) ) ;
#284 = DIRECTION ( 'NONE',  ( 0.000000000000000000, 0.000000000000000000, 1.000000000000000000 ) ) ;
#285 = VECTOR ( 'NONE', #133, 1000.000000000000000 ) ;
#286 =( NAMED_UNIT ( * ) PLANE_ANGLE_UNIT ( ) SI_UNIT ( $, .RADIAN. ) );
#287 = DIRECTION ( 'NONE',  ( -1.000000000000000000, -0.000000000000000000, -0.000000000000000000 ) ) ;
#288 = DIRECTION ( 'NONE',  ( 0.000000000000000000, 0.000000000000000000, 1.000000000000000000 ) ) ;
#289 = CARTESIAN_POINT ( 'NONE',  ( 1.500000000000000444, 3.673940397442059868E-16, -3.000000000000000000 ) ) ;
#290 = CIRCLE ( 'NONE', #220, 3.000000000000000000 ) ;
#291 = APPROVAL_PERSON_ORGANIZATION ( #93, #53, #273 ) ;
#292 = DIRECTION ( 'NONE',  ( 0.000000000000000000, 0.000000000000000000, 1.000000000000000000 ) ) ;
#293 = EDGE_LOOP ( 'NONE', ( #296, #179, #67, #224 ) ) ;
#294 = ADVANCED_FACE ( 'NONE', ( #108 ), #13, .T. ) ;
#295 = PERSON_AND_ORGANIZATION ( #268, #204 ) ;
#296 = ORIENTED_EDGE ( 'NONE', *, *, #269, .T. ) ;
#297 = EDGE_CURVE ( 'NONE', #247, #277, #234, .T. ) ;
#298 = APPLICATION_PROTOCOL_DEFINITION ( 'international standard', 'config_control_design', 1994, #95 ) ;
#299 = FACE_OUTER_BOUND ( 'NONE', #293, .T. ) ;
#300 = ORIENTED_EDGE ( 'NONE', *, *, #20, .F. ) ;
#301 = APPROVAL_ROLE ( '' ) ;
#302 = ORIENTED_EDGE ( 'NONE', *, *, #304, .F. ) ;
#303 = COORDINATED_UNIVERSAL_TIME_OFFSET ( 8, 0, .AHEAD. ) ;
#304 = EDGE_CURVE ( 'NONE', #72, #322, #107, .T. ) ;
#305 = APPROVAL_PERSON_ORGANIZATION ( #295, #241, #245 ) ;
#306 = CARTESIAN_POINT ( 'NONE',  ( 0.5000000000000002220, 3.000000000000000000, 0.000000000000000000 ) ) ;
#307 = FACE_OUTER_BOUND ( 'NONE', #216, .T. ) ;
#308 = CARTESIAN_POINT ( 'NONE',  ( -1.614212418857619014, 0.000000000000000000, 0.000000000000000000 ) ) ;
#309 = CARTESIAN_POINT ( 'NONE',  ( -1.614212418857619014, 0.000000000000000000, 3.000000000000000000 ) ) ;
#310 = CARTESIAN_POINT ( 'NONE',  ( 1.500000000000000000, 0.000000000000000000, 5.000000000000000000 ) ) ;
#311 = DIRECTION ( 'NONE',  ( 0.000000000000000000, 0.000000000000000000, 1.000000000000000000 ) ) ;
#312 = CARTESIAN_POINT ( 'NONE',  ( -1.500000000000000000, 3.673940397442059868E-16, -3.000000000000000000 ) ) ;
#313 = PRODUCT_DEFINITION ( 'UNKNOWN', '', #112, #77 ) ;
#314 = CC_DESIGN_APPROVAL ( #326, ( #58 ) ) ;
#315 = DIRECTION ( 'NONE',  ( 0.000000000000000000, 0.000000000000000000, -1.000000000000000000 ) ) ;
#316 =( LENGTH_UNIT ( ) NAMED_UNIT ( * ) SI_UNIT ( .MILLI., .METRE. ) );
#317 = FACE_BOUND ( 'NONE', #225, .T. ) ;
#318 = APPLICATION_CONTEXT ( 'configuration controlled 3d designs of mechanical parts and assemblies' ) ;
#319 = AXIS2_PLACEMENT_3D ( 'NONE', #152, #3, #30 ) ;
#320 = DIRECTION ( 'NONE',  ( -1.000000000000000000, -0.000000000000000000, -0.000000000000000000 ) ) ;
#321 = CC_DESIGN_APPROVAL ( #53, ( #313 ) ) ;
#322 = VERTEX_POINT ( 'NONE', #182 ) ;
#323 = ORIENTED_EDGE ( 'NONE', *, *, #226, .F. ) ;
#324 = CYLINDRICAL_SURFACE ( 'NONE', #33, 3.000000000000000000 ) ;
#325 = ORIENTED_EDGE ( 'NONE', *, *, #226, .T. ) ;
#326 = APPROVAL ( #22, 'UNSPECIFIED' ) ;
#327 = VECTOR ( 'NONE', #253, 1000.000000000000000 ) ;
#328 = CARTESIAN_POINT ( 'NONE',  ( 0.000000000000000000, 0.000000000000000000, 0.000000000000000000 ) ) ;
#329 = ORIENTED_EDGE ( 'NONE', *, *, #4, .T. ) ;
#330 = CALENDAR_DATE ( 2020, 22, 12 ) ;
#331 = CARTESIAN_POINT ( 'NONE',  ( -1.614212418857619014, 0.000000000000000000, 5.000000000000000000 ) ) ;
#332 = VECTOR ( 'NONE', #94, 1000.000000000000000 ) ;
#333 = APPROVAL_PERSON_ORGANIZATION ( #71, #326, #301 ) ;
#334 = ORIENTED_EDGE ( 'NONE', *, *, #20, .T. ) ;
#335 = CARTESIAN_POINT ( 'NONE',  ( -1.500000000000000000, 0.000000000000000000, 0.000000000000000000 ) ) ;
ENDSEC;
END-ISO-10303-21;
